Слушать Van Halen - Eruption

Прослушать или скачать Van Halen - Eruption в mp3, текст песни Eruption, видеоклип Eruption и van halen eruption скачать.

Рейтинг: 0

Исполнитель: Van Halen

Название песни: Eruption

Продолжительность mp3: 01:42

Дата добавления: 2015-02-07

Текст просмотрен: 244



Скачать

Другие песни исполнителя Van Halen

Текст песни:

~ = vrabrato
p = pull off
b = bend
r = release note from bend
h = hammer on
+ = tap
w = whammy bar
/ = slide
/X = pick slide
pm = palm mute
(ps) = pick squeel or pinch harmonic
DB = dive bomb
/-\ = slide up and back down the neck quickly on that string

Effects To Use:
- Reverb
- Phaser
- Slight Delay
- Compressor

Сначала стюнить на полтона:

Eb Ab Db Gb Bb Eb

<-------PM-------->
E--------------------------------------------------------------------------------------|
B-------------------------------5-8p5p0-8p5p0-8p5p0-8p5p0-8p5p0-8p5p0-8p5p0------------|
G-----2----------5-7b(ps)r-p5-7--------------------------------------------------------|
D--/X-2------5-7-----------------------------------------------------------------------|
A--/X-0--3/7---------------------------------------------------------------------------|
E--------------------------------------------------------------------------------------|

E---------------------------------------------------------------------------|
B----5-8p5---5--------------------------------------------------------------|
G--7-------7---7-5--4h5h7p5p4---4h5h7p5p4---4h5h7p5p4---4h5h7p5p4-----------|
D-----------------------------7-----------7-----------7-----------7---------|
A---------------------------------------------------------------------------|
E---------------------------------------------------------------------------|

E------------------------------------------------------0--0-----------------|
B---------------------------------------------------2--3--3-----------------|
G--4------------------------------------------------2--0--2-----------------|
D----7-6-5-4----------------------------------------2--0--0-----------------|
A------------7-6-5-3~--/-\------0w-0w-0w-0w-0w-0w---0--0--------------------|
E----------------------------0w------------------------3--------------------|

E-------17-----17-17----17-17-----17-17---------17-20-21----20p17-----------|
G--/20-----20b------20b-------20b-------20b--20----------19-----------------|
B---------------------------------------------------------------------------|
D---------------------------------------------------------------------------|
A---------------------------------------------------------------------------|
E---------------------------------------------------------------------------|

E------17-----17--20brp17----------------------------------------------------------------------------|
B--19b----20b-------------20-17-20brp17----20brp17----20brp17----20brp17----20brp17----20brp17----17-|
G---------------------------------------19---------19---------19---------19---------19---------19----|
D----------------------------------------------------------------------------------------------------|
A----------------------------------------------------------------------------------------------------|
E----------------------------------------------------------------------------------------------------|


E--------------------17-20-------------17-20--17h20p17/14h15p14--------------------------------------|
G--------16-18-20-21----------17h20-----------------------------17p14----14--------------------------|
B--12/18-------------------17-------17--------------------------------17----18b-14-18b-18b-----------|
D----------------------------------------------------------------------------------------------------|
A----------------------------------------------------------------------------------------------------|
E-------------------------------------------------------------------------------------------0DB------|
Тут ОЧЕНЬ быстрое тремоло

E--12-12-12-12-12-12-12-16-16-16-16-16-16-19-19-19-19-19-19-17-17-17-17-14-14-14-14--|
B----------------------------------------------------------------------------


Видео: Eruption Guitar Solo--Eddie Van Halen




Фотогалерея:

Комментарии (0)
Добавить комментарий